Here Comes the Sun

The Beatles

Print Twitter Facebook Email
Capo 7th fret
Intro: D G A7 (2 times)

D                   G               E7
 Here comes the sun, here comes the sun,
          D
and I say, "It's all right".

D                            G                  A7
 Little darling, it's been a long, cold, lonely winter
D                              G                     A7
 Little darling, it feels like years since it's been here
D                   G               E7
 Here comes the sun, here comes the sun
          D
and I say, "It's all right".

Little darling, the smile's returning to the faces
Little darling, it seems like years since it's been here
Here comes the sun, here comes the sun
and I say, "It's all right".

F    C    G            D      A7
Sun, sun, sun, here it comes...
Sun, sun, sun, here it comes...
Sun, sun, sun, here it comes...
Sun, sun, sun, here it comes...
Sun, sun, sun, here it comes...

D                            G             A7
 Little darling, I feel that ice is slowly melting
D                              G                     A7
 Little darling, it seems like years since it's been clear
D                   G               E7
 Here comes the sun, here comes the sun,
          D
and I say, "It's all right".
D                   G               E7
 Here comes the sun, here comes the sun,
D
 It's all right
D
 It's all right

End of Chorus Part:
e --------0-----0-----0-----0-----------
B ------3-----3-----3-----3---3-2-------
G --2/4-----2-----0-----2---------4-2---
D --------------------------------------
A --------------------------------------
E --------------------------------------

Bridge Part:
         F     C     G            D  A7
e --------------------------------2--0-
B -----------1--------------------3--2-
G ---------2-------0-----0--------2--0-
D -----2-3-------2-----0-------0--0--2-
A -0-4---------3-----2-------2-------0-
E -------------------------3-----------