Wish You Were Here

Pink Floyd

Now available: Listen to the songs from the Acoustic Binder on my Spotify Playlist!
Print Twitter Facebook Email
Intro: | Em7 | G | Em7 | G | Em7 | A7sus4 | Em7 | A7sus4 | G | G |
       | Em7 | G | Em7 | G | Em7 | A7sus4 | Em7 | A7sus4 | G |

C                         D
 So, so you think you can tell
            Am                    G
Heaven from hell, blue skies from pain
                     D                       C
Can you tell a green field from a cold steel rail?
               Am                         G
A smile from a veil. Do you think you can tell?

                        C                     D
And did they get you to trade your heroes for ghosts?
                Am                  G
Hot ashes for trees, hot air for a cool breeze?
                   D                   C
Cold comfort for change? And did you exchange
                       Am                       G
a walk on part in the war for a lead role in a cage?

Instrumental: | Em7 | G | Em7 | G | Em7 | A7sus4 | Em7 | A7sus4 | G |

C                                D
 How I wish, how I wish you were here
           Am                                     G
We're just two lost souls swimming in a fish bowl, year after year
D                                 C
 Running over the same old ground, what have we found?
             Am                   G
The same old fears, wish you were here

Outro: | Em7 | G | Em7 | G | Em7 | A7sus4 | Em7 | A7sus4 | G | G | (repeat and fade)

Intro and Instrumental:
e ----------3---------3------------3---------3--
B ----------3---------3------------3---------3--
G ----------0---0-----0------------0---0-----0--
D -----0-2--2-2---2-0-0-------0-2--2-2---2-0-0--
A -0h2----------------2---0h2----------------2--
E --------------------3-3--------------------3--

e -----------3---------3----------3---------3--------3--
B -----------3---------3----------3---------3--------3--
G -----------0---------0----------0---------0--------0--
D -------0-2-2-2-0-----2------0-2-2-2-0-----2--------0--
A ---0h2-----------2-0-0--0h2-----------2-0-0--0h2-0-2--
E -3-------------------------------------------------3--