Walking After You

Foo Fighters

Now available: Listen to the songs from the Acoustic Binder on my Spotify Playlist!
Print Twitter Facebook Email
   E  Esus2/G# Asus2 Bbmb5 B7  F#  C#
e -0------0------0----0-----0---0---0--
B -0------0------0----2-----0---0---0--
G -1------4------2----3-----2---3---6--
D -2------2------2----2-----1---4---6--
A -2------x------0----1-----2---4---4--
E -0------4------x----x-----x---2---x--

Intro 
e ---0---2---4---0---5---4---2---0---4--
B -----0---0---0---0---0---0---0---0----
G ---1---2---4---1---6---4---2---1---4--
D --------------------------------------
A --------------------------------------
E --------------------------------------

E           E/G#         A               Bbmib5   A  Asus2 
Tonight I'm tangled in my blanket of clouds,
B7 
Dreaming aloud 
E           E/G#         A               Bbmib5   A  Asus2 
Things just won't do without you, matter of fact 
B7               E
I'm on your back 
E/G#             A  Bbmib5  A  Asus2 
I'm on your back 
B7               E
I'm on your back 

F#                   Asus2     E 
If you walk out on me      I'm walking after you 
F#                   Asus2     E 
If you walk out on me      I'm walking after you 

If you'd accept surrender, I'll give up some more
Weren't you adored?
I cannot be without you, matter of fact.  I'm on your back
I'm on your back. I'm on your back

If you walk out on me, I'm walking after you
If you walk out on me, I'm walking after you

        C#                  Asus2       F#
Now the heart is cracked in two, I'm on your back.

I cannot be without you, matter of fact. I'm on your back
If you walk out on me, I'm walking after you
If you walk out on me, I'm walking after you
If you walk out on me, I'm walking after you

Now the heart is cracked in two, I'm on your back